  0
SECTION
  2
HEADER
  9
$ACADVER
  1
AC1014
  9
$HANDSEED
  5
FFFF
  9
$INSUNITS
 70
     4
  9
$MEASUREMENT
 70
     1
  0
ENDSEC
  0
SECTION
  2
TABLES
  0
TABLE
  2
VPORT
  5
8
330
0
100
AcDbSymbolTable
 70
     4
  0
VPORT
  5
2E
330
8
100
AcDbSymbolTableRecord
100
AcDbViewportTableRecord
  2
*ACTIVE
 70
     0
 10
0.0
 20
0.0
 11
1.0
 21
1.0
 12
210.0
 22
148.5
 13
0.0
 23
0.0
 14
10.0
 24
10.0
 15
10.0
 25
10.0
 16
0.0
 26
0.0
 36
1.0
 17
0.0
 27
0.0
 37
0.0
 40
341.0
 41
1.24
 42
50.0
 43
0.0
 44
0.0
 50
0.0
 51
0.0
 71
     0
 72
   100
 73
     1
 74
     3
 75
     0
 76
     0
 77
     0
 78
     0
  0
ENDTAB
  0
TABLE
  2
LTYPE
  5
5
330
0
100
AcDbSymbolTable
 70
     1
  0
LTYPE
  5
14
330
5
100
AcDbSymbolTableRecord
100
AcDbLinetypeTableRecord
  2
BYBLOCK
 70
     0
  3

 72
    65
 73
     0
 40
0.0
  0
LTYPE
  5
15
330
5
100
AcDbSymbolTableRecord
100
AcDbLinetypeTableRecord
  2
BYLAYER
 70
     0
  3

 72
    65
 73
     0
 40
0.0
  0
LTYPE
  5
16
330
5
100
AcDbSymbolTableRecord
100
AcDbLinetypeTableRecord
  2
CONTINUOUS
 70
     0
  3
Solid line
 72
    65
 73
     0
 40
0.0
  0
ENDTAB
  0
TABLE
  2
LAYER
  5
2
100
AcDbSymbolTable
 70
5
  0
LAYER
  5
50
100
AcDbSymbolTableRecord
100
AcDbLayerTableRecord
  2
0
 70
0
  6
CONTINUOUS
  0
LAYER
  5
51
100
AcDbSymbolTableRecord
100
AcDbLayerTableRecord
  2
Outline
 70
0
  6
CONTINUOUS
  0
LAYER
  5
52
100
AcDbSymbolTableRecord
100
AcDbLayerTableRecord
  2
Cut
 70
0
  6
CONTINUOUS
  0
LAYER
  5
53
100
AcDbSymbolTableRecord
100
AcDbLayerTableRecord
  2
Ze
 70
0
  6
CONTINUOUS
  0
LAYER
  5
54
100
AcDbSymbolTableRecord
100
AcDbLayerTableRecord
  2
Hi
 70
0
  6
CONTINUOUS
  0
ENDTAB
  0
TABLE
  2
STYLE
  5
3
330
0
100
AcDbSymbolTable
 70
     1
  0
STYLE
  5
11
330
3
100
AcDbSymbolTableRecord
100
AcDbTextStyleTableRecord
  2
STANDARD
 70
     0
 40
0.0
 41
1.0
 50
0.0
 71
     0
 42
2.5
  3
txt
  4

  0
ENDTAB
  0
TABLE
  2
VIEW
  5
6
330
0
100
AcDbSymbolTable
 70
     0
  0
ENDTAB
  0
TABLE
  2
UCS
  5
7
330
0
100
AcDbSymbolTable
 70
     0
  0
ENDTAB
  0
TABLE
  2
APPID
  5
9
330
0
100
AcDbSymbolTable
 70
     2
  0
APPID
  5
12
330
9
100
AcDbSymbolTableRecord
100
AcDbRegAppTableRecord
  2
ACAD
 70
     0
  0
ENDTAB
  0
TABLE
  2
DIMSTYLE
  5
A
330
0
100
AcDbSymbolTable
 70
     1
  0
DIMSTYLE
105
27
330
A
100
AcDbSymbolTableRecord
100
AcDbDimStyleTableRecord
  2
ISO-25
 70
     0
  3

  4

  5

  6

  7

 40
1.0
 41
2.5
 42
0.625
 43
3.75
 44
1.25
 45
0.0
 46
0.0
 47
0.0
 48
0.0
140
2.5
141
2.5
142
0.0
143
0.03937007874016
144
1.0
145
0.0
146
1.0
147
0.625
 71
     0
 72
     0
 73
     0
 74
     0
 75
     0
 76
     0
 77
     1
 78
     8
170
     0
171
     3
172
     1
173
     0
174
     0
175
     0
176
     0
177
     0
178
     0
270
     2
271
     2
272
     2
273
     2
274
     3
340
11
275
     0
280
     0
281
     0
282
     0
283
     0
284
     8
285
     0
286
     0
287
     3
288
     0
  0
ENDTAB
  0
TABLE
  2
BLOCK_RECORD
  5
1
330
0
100
AcDbSymbolTable
 70
     1
  0
BLOCK_RECORD
  5
1F
330
1
100
AcDbSymbolTableRecord
100
AcDbBlockTableRecord
  2
*MODEL_SPACE
  0
BLOCK_RECORD
  5
1B
330
1
100
AcDbSymbolTableRecord
100
AcDbBlockTableRecord
  2
*PAPER_SPACE
  0
ENDTAB
  0
ENDSEC
  0
SECTION
  2
BLOCKS
  0
BLOCK
  5
20
330
1F
100
AcDbEntity
  8
0
100
AcDbBlockBegin
  2
*MODEL_SPACE
 70
     0
 10
0.0
 20
0.0
 30
0.0
  3
*MODEL_SPACE
  1

  0
ENDBLK
  5
21
330
1F
100
AcDbEntity
  8
0
100
AcDbBlockEnd
  0
BLOCK
  5
1C
330
1B
100
AcDbEntity
 67
     1
  8
0
100
AcDbBlockBegin
  2
*PAPER_SPACE
  1

  0
ENDBLK
  5
1D
330
1B
100
AcDbEntity
 67
     1
  8
0
100
AcDbBlockEnd
  0
ENDSEC
  0
SECTION
  2
ENTITIES
  0
SPLINE
  5
100
100
AcDbEntity
  8
Outline
 62
7
100
AcDbSpline
 70
8
 71
3
 72
8
 73
4
 74
0
 40
0
 40
0
 40
0
 40
0
 40
1
 40
1
 40
1
 40
1
 10
50.000049
 20
99.867708
 30
0.0
 10
22.458851
 20
99.867699
 30
0.0
 10
0.132301
 20
77.541149
 30
0.0
 10
0.132292
 20
49.999951
 30
0.0
  0
SPLINE
  5
101
100
AcDbEntity
  8
Outline
 62
7
100
AcDbSpline
 70
8
 71
3
 72
8
 73
4
 74
0
 40
0
 40
0
 40
0
 40
0
 40
1
 40
1
 40
1
 40
1
 10
0.132292
 20
49.999951
 30
0.0
 10
0.132302
 20
22.458753
 30
0.0
 10
22.458851
 20
0.132204
 30
0.0
 10
50.000049
 20
0.132194
 30
0.0
  0
SPLINE
  5
102
100
AcDbEntity
  8
Outline
 62
7
100
AcDbSpline
 70
8
 71
3
 72
8
 73
4
 74
0
 40
0
 40
0
 40
0
 40
0
 40
1
 40
1
 40
1
 40
1
 10
50.000049
 20
0.132194
 30
0.0
 10
77.541247
 20
0.132204
 30
0.0
 10
99.867796
 20
22.458753
 30
0.0
 10
99.867806
 20
49.999951
 30
0.0
  0
SPLINE
  5
103
100
AcDbEntity
  8
Outline
 62
7
100
AcDbSpline
 70
8
 71
3
 72
8
 73
4
 74
0
 40
0
 40
0
 40
0
 40
0
 40
1
 40
1
 40
1
 40
1
 10
99.867806
 20
49.999951
 30
0.0
 10
99.867796
 20
77.541149
 30
0.0
 10
77.541247
 20
99.867698
 30
0.0
 10
50.000049
 20
99.867708
 30
0.0
  0
SPLINE
  5
104
100
AcDbEntity
  8
Outline
 62
7
100
AcDbSpline
 70
8
 71
3
 72
8
 73
4
 74
0
 40
0
 40
0
 40
0
 40
0
 40
1
 40
1
 40
1
 40
1
 10
50.000049
 20
94.880933
 30
0.0
 10
74.787127
 20
94.880924
 30
0.0
 10
94.881021
 20
74.787029
 30
0.0
 10
94.881030
 20
49.999951
 30
0.0
  0
SPLINE
  5
105
100
AcDbEntity
  8
Outline
 62
7
100
AcDbSpline
 70
8
 71
3
 72
8
 73
4
 74
0
 40
0
 40
0
 40
0
 40
0
 40
1
 40
1
 40
1
 40
1
 10
94.881030
 20
49.999951
 30
0.0
 10
94.881021
 20
25.212873
 30
0.0
 10
74.787127
 20
5.118979
 30
0.0
 10
50.000049
 20
5.118970
 30
0.0
  0
SPLINE
  5
106
100
AcDbEntity
  8
Outline
 62
7
100
AcDbSpline
 70
8
 71
3
 72
8
 73
4
 74
0
 40
0
 40
0
 40
0
 40
0
 40
1
 40
1
 40
1
 40
1
 10
50.000049
 20
5.118970
 30
0.0
 10
25.212971
 20
5.118979
 30
0.0
 10
5.119076
 20
25.212873
 30
0.0
 10
5.119067
 20
49.999951
 30
0.0
  0
SPLINE
  5
107
100
AcDbEntity
  8
Outline
 62
7
100
AcDbSpline
 70
8
 71
3
 72
8
 73
4
 74
0
 40
0
 40
0
 40
0
 40
0
 40
1
 40
1
 40
1
 40
1
 10
5.119067
 20
49.999951
 30
0.0
 10
5.119076
 20
74.787029
 30
0.0
 10
25.212971
 20
94.880924
 30
0.0
 10
50.000049
 20
94.880933
 30
0.0
  0
LWPOLYLINE
  5
108
100
AcDbEntity
  8
Outline
 62
7
100
AcDbPolyline
 90
1
 70
1
 10
50.000049
 20
99.867708
 30
0.0
  0
SPLINE
  5
109
100
AcDbEntity
  8
Ze
 62
3
100
AcDbSpline
 70
8
 71
3
 72
8
 73
4
 74
0
 40
0
 40
0
 40
0
 40
0
 40
1
 40
1
 40
1
 40
1
 10
50.000049
 20
87.354777
 30
0.0
 10
31.310151
 20
87.344028
 30
0.0
 10
15.504624
 20
73.521864
 30
0.0
 10
13.002824
 20
55.000163
 30
0.0
  0
LWPOLYLINE
  5
10a
100
AcDbEntity
  8
Outline
 62
7
100
AcDbPolyline
 90
1
 70
1
 10
50.000049
 20
94.880933
 30
0.0
  0
SPLINE
  5
10b
100
AcDbEntity
  8
Ze
 62
3
100
AcDbSpline
 70
8
 71
3
 72
8
 73
4
 74
0
 40
0
 40
0
 40
0
 40
0
 40
1
 40
1
 40
1
 40
1
 10
86.997274
 20
55.000163
 30
0.0
 10
84.495474
 20
73.521864
 30
0.0
 10
68.689947
 20
87.344028
 30
0.0
 10
50.000049
 20
87.354777
 30
0.0
  0
LWPOLYLINE
  5
10c
100
AcDbEntity
  8
Ze
 62
3
100
AcDbPolyline
 90
6
 70
0
 10
13.002824
 20
55.000163
 30
0.0
 10
15.549438
 20
55.000163
 30
0.0
 10
18.019055
 20
55.000163
 30
0.0
 10
81.984143
 20
55.000163
 30
0.0
 10
83.422298
 20
55.000163
 30
0.0
 10
86.997274
 20
55.000163
 30
0.0
  0
SPLINE
  5
10d
100
AcDbEntity
  8
Ze
 62
3
100
AcDbSpline
 70
8
 71
3
 72
8
 73
4
 74
0
 40
0
 40
0
 40
0
 40
0
 40
1
 40
1
 40
1
 40
1
 10
50.000049
 20
82.374202
 30
0.0
 10
58.239794
 20
82.362203
 30
0.0
 10
66.164913
 20
79.208825
 30
0.0
 10
72.160453
 20
73.556653
 30
0.0
  0
LWPOLYLINE
  5
10e
100
AcDbEntity
  8
Ze
 62
3
100
AcDbPolyline
 90
1
 70
1
 10
50.000049
 20
87.354777
 30
0.0
  0
SPLINE
  5
10f
100
AcDbEntity
  8
Ze
 62
3
100
AcDbSpline
 70
8
 71
3
 72
8
 73
4
 74
0
 40
0
 40
0
 40
0
 40
0
 40
1
 40
1
 40
1
 40
1
 10
27.842745
 20
73.556653
 30
0.0
 10
33.837505
 20
79.208092
 30
0.0
 10
41.761375
 20
82.361414
 30
0.0
 10
50.000049
 20
82.374202
 30
0.0
  0
LWPOLYLINE
  5
110
100
AcDbEntity
  8
Ze
 62
3
100
AcDbPolyline
 90
2
 70
0
 10
72.160453
 20
73.556653
 30
0.0
 10
27.842745
 20
73.556653
 30
0.0
  0
LWPOLYLINE
  5
111
100
AcDbEntity
  8
Ze
 62
3
100
AcDbPolyline
 90
1
 70
1
 10
50.000049
 20
82.374202
 30
0.0
  0
SPLINE
  5
112
100
AcDbEntity
  8
Ze
 62
3
100
AcDbSpline
 70
8
 71
3
 72
8
 73
4
 74
0
 40
0
 40
0
 40
0
 40
0
 40
1
 40
1
 40
1
 40
1
 10
76.278031
 20
68.798287
 30
0.0
 10
78.258337
 20
66.042028
 30
0.0
 10
79.792920
 20
62.991520
 30
0.0
 10
80.825557
 20
59.758529
 30
0.0
  0
LWPOLYLINE
  5
113
100
AcDbEntity
  8
Ze
 62
3
100
AcDbPolyline
 90
2
 70
0
 10
23.725167
 20
68.798287
 30
0.0
 10
76.278031
 20
68.798287
 30
0.0
  0
SPLINE
  5
114
100
AcDbEntity
  8
Ze
 62
3
100
AcDbSpline
 70
8
 71
3
 72
8
 73
4
 74
0
 40
0
 40
0
 40
0
 40
0
 40
1
 40
1
 40
1
 40
1
 10
19.177641
 20
59.758529
 30
0.0
 10
20.210278
 20
62.991520
 30
0.0
 10
21.744861
 20
66.042028
 30
0.0
 10
23.725167
 20
68.798287
 30
0.0
  0
LWPOLYLINE
  5
115
100
AcDbEntity
  8
Ze
 62
3
100
AcDbPolyline
 90
2
 70
0
 10
80.825557
 20
59.758529
 30
0.0
 10
19.177641
 20
59.758529
 30
0.0
  0
LWPOLYLINE
  5
116
100
AcDbEntity
  8
Ze
 62
3
100
AcDbPolyline
 90
1
 70
1
 10
23.725167
 20
68.798287
 30
0.0
  0
SPLINE
  5
117
100
AcDbEntity
  8
Ze
 62
3
100
AcDbSpline
 70
8
 71
3
 72
8
 73
4
 74
0
 40
0
 40
0
 40
0
 40
0
 40
1
 40
1
 40
1
 40
1
 10
21.704102
 20
26.193136
 30
0.0
 10
28.753604
 20
17.878949
 30
0.0
 10
39.099541
 20
13.081227
 30
0.0
 10
50.000049
 20
13.071456
 30
0.0
  0
SPLINE
  5
118
100
AcDbEntity
  8
Ze
 62
3
100
AcDbSpline
 70
8
 71
3
 72
8
 73
4
 74
0
 40
0
 40
0
 40
0
 40
0
 40
1
 40
1
 40
1
 40
1
 10
50.000049
 20
13.071456
 30
0.0
 10
58.459978
 20
13.097594
 30
0.0
 10
66.657490
 20
16.011070
 30
0.0
 10
73.236357
 20
21.329867
 30
0.0
  0
LWPOLYLINE
  5
119
100
AcDbEntity
  8
Ze
 62
3
100
AcDbPolyline
 90
2
 70
0
 10
30.468424
 20
34.957458
 30
0.0
 10
21.704102
 20
26.193136
 30
0.0
  0
SPLINE
  5
11a
100
AcDbEntity
  8
Ze
 62
3
100
AcDbSpline
 70
8
 71
3
 72
8
 73
4
 74
0
 40
0
 40
0
 40
0
 40
0
 40
1
 40
1
 40
1
 40
1
 10
70.147139
 20
24.747229
 30
0.0
 10
64.432180
 20
20.158004
 30
0.0
 10
57.329500
 20
17.642998
 30
0.0
 10
50.000049
 20
17.613298
 30
0.0
  0
SPLINE
  5
11b
100
AcDbEntity
  8
Ze
 62
3
100
AcDbSpline
 70
8
 71
3
 72
8
 73
4
 74
0
 40
0
 40
0
 40
0
 40
0
 40
1
 40
1
 40
1
 40
1
 10
50.000049
 20
17.613298
 30
0.0
 10
42.031806
 20
17.643491
 30
0.0
 10
34.403936
 20
20.612407
 30
0.0
 10
28.529008
 20
25.870158
 30
0.0
  0
LWPOLYLINE
  5
11c
100
AcDbEntity
  8
Ze
 62
3
100
AcDbPolyline
 90
2
 70
0
 10
73.236357
 20
21.329867
 30
0.0
 10
70.147139
 20
24.747229
 30
0.0
  0
LWPOLYLINE
  5
11d
100
AcDbEntity
  8
Ze
 62
3
100
AcDbPolyline
 90
3
 70
0
 10
28.529008
 20
25.870158
 30
0.0
 10
34.042367
 20
31.383516
 30
0.0
 10
30.468424
 20
34.957458
 30
0.0
  0
SPLINE
  5
11e
100
AcDbEntity
  8
Ze
 62
3
100
AcDbSpline
 70
8
 71
3
 72
8
 73
4
 74
0
 40
0
 40
0
 40
0
 40
0
 40
1
 40
1
 40
1
 40
1
 10
13.231234
 20
45.000258
 30
0.0
 10
13.474885
 20
43.310754
 30
0.0
 10
13.834717
 20
41.640056
 30
0.0
 10
14.308171
 20
40.000047
 30
0.0
  0
LWPOLYLINE
  5
11f
100
AcDbEntity
  8
Ze
 62
3
100
AcDbPolyline
 90
3
 70
0
 10
53.049475
 20
45.027128
 30
0.0
 10
53.049475
 20
45.000258
 30
0.0
 10
13.231234
 20
45.000258
 30
0.0
  0
SPLINE
  5
120
100
AcDbEntity
  8
Ze
 62
3
100
AcDbSpline
 70
8
 71
3
 72
8
 73
4
 74
0
 40
0
 40
0
 40
0
 40
0
 40
1
 40
1
 40
1
 40
1
 10
85.691927
 20
40.000045
 30
0.0
 10
86.165381
 20
41.640054
 30
0.0
 10
86.525213
 20
43.310752
 30
0.0
 10
86.768864
 20
45.000256
 30
0.0
  0
LWPOLYLINE
  5
121
100
AcDbEntity
  8
Ze
 62
3
100
AcDbPolyline
 90
10
 70
0
 10
14.308171
 20
40.000047
 30
0.0
 10
53.049475
 20
40.000047
 30
0.0
 10
53.049475
 20
24.633024
 30
0.0
 10
58.103430
 20
24.633024
 30
0.0
 10
58.103430
 20
32.302840
 30
0.0
 10
73.684908
 20
32.302840
 30
0.0
 10
73.684908
 20
37.356795
 30
0.0
 10
58.103430
 20
37.356795
 30
0.0
 10
58.103430
 20
40.000045
 30
0.0
 10
85.691927
 20
40.000045
 30
0.0
  0
LWPOLYLINE
  5
122
100
AcDbEntity
  8
Ze
 62
3
100
AcDbPolyline
 90
4
 70
0
 10
86.768864
 20
45.000256
 30
0.0
 10
58.103430
 20
45.000256
 30
0.0
 10
58.103430
 20
45.027126
 30
0.0
 10
53.049475
 20
45.027128
 30
0.0
  0
ENDSEC
  0
SECTION
  2
OBJECTS
  0
DICTIONARY
  5
C
330
0
100
AcDbDictionary
  3
ACAD_GROUP
350
D
  3
ACAD_MLINESTYLE
350
17
  0
DICTIONARY
  5
D
330
C
100
AcDbDictionary
  0
DICTIONARY
  5
1A
330
C
100
AcDbDictionary
  0
DICTIONARY
  5
17
330
C
100
AcDbDictionary
  3
STANDARD
350
18
  0
DICTIONARY
  5
19
330
C
100
AcDbDictionary
  0
ENDSEC
  0
EOF
